Оранжевое настроение
(1994г.)

В.Шахрин - ак. гитара, губ. гармошка, вокал, дурные голоса
В. Бегунов - ак. гитара, вокал(5), дурные голоса
А.Нифантьев - ак. гитара, дурные голоса
В.Севрин - все, что стучит, звенит и т.д., дурные голоса.

Музыка - В.Шахрин, В.Бегунов(5), Традиция(2)
Слова - В.Шахрин, Л.Федотов(5), Б.Гребенщиков(12)

Звукоинженер - А.Жданов
Альбом записан 17 сентября 1993 года в студии "Новик Рекордз" в городе Екатеринбурге
Фирма грамзаписи "Фили", 1994

1. Пиво
2. Вольный ветер
3. Традиционная (Для Майка)
4. Сибирский тракт
5. Зинаида
6. У взморья
7. Гимн Солнцу (Бичи)
8. Оранжевое настроение
9. Я заполняю тобой
10. Ионсам
11. Вместе теплей
12. Блюз простого человека


Пиво

Аккорды набрал - Min Kormyshev

Главный рифф
E|-------------------....
H|-------------------....
G|---2-2-----2-2-----....
D|---2-2-----2-2-----....  4 times
A|---0-0-3-4-0-0-3-4-....
E|-------------------....

  Слегка приглушенное D (x-x-0-2-3-x)

Какой чудный лесок, пивной ларек.
Всегда со мной полителеновый мешок-шок
A (которое главный рифф)
Пиво! Пиво-пиво-пиво пей!

  ...и все абсолютно так же в других куплетах....  

О! Какой запах - свердловский шик.
Национальное блюдо - из кур шашлык.
Пиво! Пиво-пиво-пиво пей!

Дядя с носом как у меня.
Я зарабатываю месяц - он за полдня.
Пиво! Пиво-пиво-пиво пей!

У меня начался обратный процесс.
Мне надо в лес, но под каждым кустом любят и пьют
Пиво! Пиво-пиво-пиво пей!

Склянки, бутылки. Вода мутного цвета.
Мне снится пиво. Мне снится лето.
Пиво! Пиво-пиво-пиво пей!

Какой чудный лесок, пивной ларек.
Всегда со мной полителеновый мешок-шок
Пиво! Пиво-пиво-пиво пей! Е-ей, е-ей, е-ей, е-ей!

Вольный ветер

Как играть(подбирал - Ян Рогозин (aka Волосатый)):
Intro:

  Em     H7     G      D        Em     H7     G      D        Em
E-0-0-0|-2-2-2|-3-3-3|-2-3-2-0|-0-0-0|-2-2-2-|3-3-3|-2-3-2-0|-0------------
H-0-0-0|-0-0-0|-0-0-0|-0-0-0-0|-0-0-0|-0-0-0-|0-0-0|-0-0-0-0|-0------------
G------|------|------|--------|------|-------|-----|--------|-0------------
D------|------|------|--------|------|-------|-----|--------|-2------------
A------|------|------|--------|------|-------|-----|--------|-2------------
E------|------|------|--------|------|-------|-----|--------|-0------------

Em      H7         G                   H7
 Возвращаемся с работы,             E--2----|
       D       Em  H7  G  D         H--0----|
 Мы ребята от сохи.                 G--2----|
Em     H7         G                 D--1----|
 А кругом читают Дао                A--2----|
         D          Em  H7  G  D    E-------|
 Что твориться мужики.

 G         H7           Em
  А мы вдыхаем вольный ветер
        D            Em  H7  G  D
  Наши мысли так легки.
Em     H7            G
  И пока мы не в Шанхае,
          D           Em  H7  G  D
  Нам всё это не с руки.

А мне всё по-фиг я с покоса,
Уберите кирпичи.
А на хрена уральский парень
Занимается Тай-Чи.

А мы вдыхаем вольный ветер
Наши руки так крепки,
А ломать без толку доски
Удавиться от тоски.

Освежись аэрозолью,
Это чудо, финский пар.
Дома кафельная ванна,
И искуственнй загар.

А мы вдыхаем вольный ветер
У вонючей, у реки.
Натуральные берёзы,
Ой, да в бане веники.

Все мы грешны
И не надо перед образом стоять.
С нас потом никто не спросит,
Да и что с нас можно взять.

А мы вдыхаем вольный ветер
Наши души так легки.
Отпускай же Мать-природа
Наши смертныя гряхи.

G          H7           Em       D
 А мы вдыхаем вольный ветер...
 А мы вдыхаем вольный ветер...
 А мы вдыхаем вольный ветер...
 А мы вдыхаем вольный ветер...

Традиционная (Для Майка)

Как играть(подбирал - Ян Рогозин (aka Волосатый)):
Intro:

Bass
 A                                           D                     A
G---------|----------|----------|----------|-----2-2-4|-----2-2-4|---------
D----2-2-4|-----2-2-4|-----2-2-4|-----2-2-4|-0-4------|-0-4------|----2-2-4
A0-4------|-0-4------|-0-4------|-0-4------|----------|----------|-0-4-----
E---------|----------|----------|----------|----------|----------|---------
 Ич-тыр-тари-тада...
            E                D
G---------|----------------|-----------------------------------------------
D----2-2-4|----------------|-----------------------------------------------
A0-4------|-5---------0-1-2|-5---------2-3-4-------------------------------
E---------|---0-1-2-3------|---2-3-4-5-------------------------------------


A
 Этой теме уже столько лет.
      D
 Я спою её, даже если сильно пьян,
       A
 Я сыграю её даже панк-трубе
E
 Но не смотря на это из года в год
        D
 Я с огромным удовольствием играю этот ход.

 О, осколок вчерашнего дня,
 О, обломок наивной мечты.
 Мы с тобой расплатились сполна,
 Мы с тобой теперь сжигаем мосты.
 Приходит весна - время уличных драк,
 Твои псы на стрёме, но и я не дурак.


  A                                           A
G----------|----------|----------|----------|----------------|---------------
D-----2-2-4|-----2-2-4|-----2-2-4|-----2-2-4|-----------4-5-6|7-5-4----------
A-0-4------|-0-4------|-0-4------|-0-4------|-0-4-5-6-7------|-----7-6-5-4-3-
E----------|----------|----------|----------|----------------|---------------
                                              Мозолью о гриф...
  D                  A              E                D
G------------------|--------------|----------------|----------------------
D------------------|---------4-5-6|-7--------------|----------------------
A-5---------2-3-4-5|-4-5-6-7------|-----------0-1-2|-5---------2-3-4------
E---2-3-4-5--------|--------------|---0-1-2-3------|---2-3-4-5------------

  A                                  D                 A
G--------|--------|--------|--------|---4-2-4|---4-2-4|--------|----------
D---4-2-4|---4-2-4|---4-2-4|---4-2-4|-0------|-0------|---4-2-4|---4-2-4--
A-0------|-0------|-0------|-0------|--------|--------|-0------|-0--------
E--------|--------|--------|--------|--------|--------|--------|----------
  Ич-тыр-тари-тада...
  E                D
G----------------|----------------|---------------------------------------
D----------------|----------------|---------------------------------------
A-5---------0-1-2|-5---------2-3-4|---------------------------------------
E---0-1-2-3------|---2-3-4-5------|---------------------------------------


Мозолью о гриф, заезженный ход,
Каждое место имеет доход.
И каждый вечер телевизионный мрак,
Снимает с меня скальп, бьёт лицом о косяк.
Но я безобиден как библейский чудак,
Я лохачу причёску и делаю так - о-о!

 A                                           D                     A
G---------|----------|----------|----------|-----2-2-4|-----2-2-4|---------
D----2-2-4|-----2-2-4|-----2-2-4|-----2-2-4|-0-4------|-0-4------|----2-2-4
A0-4------|-0-4------|-0-4------|-0-4------|----------|----------|-0-4-----
E---------|----------|----------|----------|----------|----------|---------
 Брюки танкиста...
            E                D
G---------|----------------|----------------|------------------------------
D----2-2-4|----------------|----------------|------------------------------
A0-4------|-5---------0-1-2|-5---------2-3-4|------------------------------
E---------|---0-1-2-3------|---2-3-4-5------|------------------------------

  A                                   D                 A
G--------|--------|--------|--------|---4-2-4|---4-2-4|--------|----------
D---4-2-4|---4-2-4|---4-2-4|---4-2-4|-0------|-0------|---4-2-4|---4-2-4--
A-0------|-0------|-0------|-0------|--------|--------|-0------|-0--------
E--------|--------|--------|--------|--------|--------|--------|----------
  Ич-тыр-тари-тада...
  E                D                A
G----------------|----------------|---------------------------------------
D----------------|----------------|---------------------------------------
A-5---------0-1-2|-5---------2-3-4|-0-------------------------------------
E---0-1-2-3------|---2-3-4-5------|---------------------------------------

Брюки-танкиста, пенопластовый жилет,
Пальма в углу как-будто скелет.
Её листья-рёбра как ставленный стон,
Кто был здесь первым я или он?
Но вот этот стон сорвался на крик,
Давай же всё снова закрутим старик.

Текст:

Ич-тыч тай-да-да, Ич-тыч тай-да-да,
Ич-тыч тай-да-да, Ич-тыч тай-да-да,
Ич-тыч тай-да-да, Ич-тыч тай-да-да,
Ич-тыч тай-да-да, Ич-тыч тай-да-да,

Эту тему придумал не я. Этой теме уже столько лет.
Я спою ее даже если сильно пьян. Я сыграю ее даже на фанк-трубе.
Но не смотря на это из года в год
Я с огромным удовольствием играю этот ход.

О, осколок вчерашнего дня. О, обломок наивной мечты.
Мы с тобой расплатились сполна. Мы с тобой теперь сжигаем мосты.
Приходит весна - время уличных драк.
Твои псы на стреме, но и я не дурак.

Мозолью о гриф заезженный ход. Каждое место имеет доход.
И каждый вечер телевизионный мрак снимает с меня скальп, бьет лицом о косяк.
Но я безобиден как библейский чудак.
Я лохмачу прическу и делаю так -

Ич-тыч тай-да-да, Ич-тыч тай-да-да,
Ич-тыч тай-да-да, Ич-тыч тай-да-да,
Ич-тыч тай-да-да, Ич-тыч тай-да-да,
Ич-тыч тай-да-да, Ич-тыч тай-да-да,

Брюки танкиста, пенопластовый жилет, пальма в углу как будто скелет.
Ее листья-ребра как сдавленный стон. Кто был здесь первым - я или он?
Но вот этот стон сорвался на крик.
Давай же все снова закрутим, старик!

Ич-тыч тай-да-да, Ич-тыч тай-да-да,
Ич-тыч тай-да-да, Ич-тыч тай-да-да,
Ич-тыч тай-да-да, Ич-тыч тай-да-да,
Ич-тыч тай-да-да, Ич-тыч тай-да-да,

Сибирский тракт

   Am       Am' F7+ E7      Am      Am'  F7+ E7
Сибирский тракт,       восьмой километр.
Вот он этот дом, все, я приехал.
    Dm          F7+5 E7+5   Dm          F7+5 E7+5
Уверенным шагом         войду к врачу.
    Am      Am'      F7+         E7          Am Am' F7+ E7
Скажу, что жить так больше не могу и не хочу.

Ну же, да не панк, ну же, да не металлист,
Не комсомолец, не гомосексуалист.
Я просто копаюсь в грязи на Сибирском тракте.
Врач выгнал меня, он сказал: "Ты, брат, в полном порядке."

Сибирский тракт, зайти бы в трактир.
Но в трактире грязь и на морозе сортир.
А в сортире все в дерьме, а в стене дыра.
Я вижу там голую попу с наколкой "Ура!"

Сибирский тракт, свет фонаря.
Я успокоился, день прожит не зря.
Я понял, что жить и так тоже можно.
Все, что мы имеем так мало, но зато так надежно.

Все, что мы имеем так мало, но зато так надежно.
Все, что мы имеем так мало, но зато так надежно.

     F7+                F7+5             E7+5            Am'
|-0-|---|---|   |-0-|---|---|---|   |---|---|---|   |---|---|---|
|---|---|-0-|   |---|---|---|-0-|   |---|---|-0-|   |-0-|---|---|
|---|-0-|---|   |---|-0-|---|---|   |-0-|---|---|   |---|-0-|---|
|-0-|---|---|   |-0-|---|---|---|   |---|---|---|   |---|-0-|---|
|---|---|-0-|   |---|---|-0-|---|   |---|-0-|---|   |---|---|-0-|
|-0-|---|---|   |-0-|---|---|---|   |---|---|---|   |---|---|---|

Зинаида

Аккорды набрал - Min Kormyshev

C#m H A
E F#m H&

E              F#m        H              E      F#m H7
Когда приходит вечер солнце падает за дом.
E                    F#m            H          E   F#m H
Ты, раздвигая целый мир, идешь ко мне напролом.
A                   H                       C#m  H A
Ты совершаешь по ступенькам свой тяжелый подъем,
A              H                  E       A H
Неотвратимо заполняя мой дверной проем.

E       F#m H   и так далее....
Зинаида, Зинаида, Зинаида-аа-ааа-аааа-аа-а.

Ты уникальное созданье - ты похожа на слона.
Твои вчерашние партнеры навсегда лишились сна.
Ты шепчешь басом мне на ухо, что давно уже одна.
Ты говоришь, что я твой пупсик и в меня ты влюблена.

Зинаида, Зинаида, Зинаида-аа-ааа-аааа-аа-а.

Ты нависаешь надо мной, я погружаюсь в туман.
Ты уверяешь, что являешься бальзамом для ран.
Тебя давно я принимаю за оптический обман.
В тебе сто сорок килограмм, ты мой безжалостный тиран.

Зинаида, Зинаида, Зинаида-аа-ааа-аааа-аа-а.
Зинаида, Зинаида, Зинаида-аа-ааа-аааа-аа-а.

 

У взморья

Как играть(подбирал - Ян Рогозин (aka Волосатый)):
Intro:

2nd Guitar
E---3---3---3---3---3---3---3---3---2---2---2--2---3---3---5---5----------
H-5---5---5---5---5---5---5---5---4---4---4---4--5---5---7---7------------
G-------------------------------------------------------------------------
D-------------------------------------------------------------------------
A-------------------------------------------------------------------------
E-------------------------------------------------------------------------

  Em       H7     Em           H7         Em           H7
E--------|-^7---|--------|-^7-------^7|-12-12-12--12|-^7-----------|------
H-^12----|------|-^12----|------^12---|-------------|----12-12-10-8|------
G-----^12|------|-----^12|------------|-------------|--------------|------
D--------|------|--------|------------|-------------|--------------|------
A--------|------|--------|------------|-------------|--------------|------
E--------|------|--------|------------|-------------|--------------|------

Em           H7
------------|--------
-12---------|--------        *Примечание: ^ - флажолет
--9-11h12p11|-9-7----                     h - hammer
------------|-----9--                     p - pool
------------|--------
------------|--------

Bass for intro:

  Em   H7          Em    H7     Em   H7         Em   H7
G----|-----------|-----|------|----|----------|----|----------
D----|-----------|-----|------|----|----------|----|----------
A----|-2-2---0h2-|-----|-2-0--|----|-2-2---0h2|----|-2---2----
E-0-3|-----3-----|-0-3-|-----3|-0-3|-----3----|-0-3|----------

Дальше бас как-то меняется, но в принципе можно играть и этот.

Coda:
2nd Guitar

  Em        H7
E-3-3-2-3|-5-5-3-2-3-----
H-5-5-4-5|-7-7-5-4-5-----
G--------|---------------
D--------|---------------
A--------|---------------
E--------|---------------

Текст:

     Em              H7
Я купил в ларьке "Советскую культуру",
Я три дня не называл тебя дурой.
A                     Em    H7
У-у, наверно, я стал лучше.

Я наконец пробрил свою морду.
Разучил два новых заковыристых аккорда.
У-у, наверно, я стал круче.

Вместо детских снов - грязные обрывки.
По утрам я здесь ел взбитые сливки.
У-у, наверно, я стал сытым.

Вчера я поздно лег, сегодня поздно встал.
Я начал быстро уставать когда слушаю металл.
У-у, наверно, я стал старше.

Я слышал, как шумят фруктовые сады.
Я две недели подряд лежу у воды.
У-, наверно, я стал чище.

У-у, неужто, я стал лучше.
У-у, неужто, я стал старше.
У-у, неужто, я стал круче.
У-у, неужто, я стал сытым.
У-у, неужто, я стал.

Гимн Солнцу (Бичи)

Как играть(подбирал - Ян Рогозин (aka Волосатый)):
E      E        A      E       A      H7     E
Поднимайте знамёна бичи, горячи уже солнца лучи.
        A           H7       E         A
Много нас, словно рать Куликовской сечи.
           E           H7      E
Так поднимайте же знамёна, бичи !

1st. Guitar
E--------|--------|--------|--------|--------|--------|--------|---------
H--------|--------|--------|--------|--------|--------|--------|---------
G--------|--------|--------|--------|--------|--------|--------|---------
D--------|--------|--------|--------|--------|--------|--------|---------
A-2-2-4-4|-2-2-4-4|-2-2-4-4|-2-2-4-4|-2-2-4-4|-2-2-4-4|-2-2-4-4|-2-2-4-4-
E-0-0-0-0|-0-0-0-0|-0-0-0-0|-0-0-0-0|-0-0-0-0|-0-0-0-0|-0-0-0-0|-0-0-0-0-

2nd. Guitar (Solo)
E--------|--------|--------|-----5-5|--------|-----5-5|--------|-----5-5-
H--------|--------|--------|-----8-5|--------|-----8-5|--------|-----8-5-
G--------|--------|--------|-----6-6|--------|-----6-6|--------|-----6-6-
D--------|--------|--------|-----5-5|--------|-----5-5|--------|-----5-5-
A--------|--------|--------|-----7-7|--------|-----7-7|--------|-----7-7-
E--------|--------|--------|--------|--------|--------|--------|---------

1st. Guitar
E--------|--------|--------|---------
H--------|--------|--------|---------
G--------|--------|--------|---------
D--------|--------|--------|---------
A-2-2-4-4|-2-2-4-4|-2-2-4-4|-2-2-4-4-
E-0-0-0-0|-0-0-0-0|-0-0-0-0|-0-0-0-0-
                Как весною...
2nd. Guitar
E--------|--------|----------|-
H-2-2-2-2|-2-2-2-2|-2-2------|-
G-4-4-4-4|-4-4-4-4|-4-4\2-0--|-
D--------|--------|---------2|-
A--------|--------|----------|-
E--------|--------|----------|-

  E         A         E         E         A         H7        E
E---------|---------|---------|---------|---------|---------|----------
H---------|---------|---------|---------|---------|---------|----------
G---------|---------|---------|---------|---------|---------|----------
D---------|-2-2-4--4|---------|---------|-2-2-4--4|-1-1-4--4|----------
A-2-2-4--4|-0-0-0--0|-2-2-4--4|-2-2-4--4|-0-0-0--0|-2-2-2--2|-2-2-4--4-
E-0-0-0--0|---------|-0-0-0--0|-0-0-0--0|---------|---------|-0-0-0--0-
...весною на пашне грачи           всюду наши   собратья  бичи

E         A         H7        E         A         E         H7
---------|---------|---------|---------|---------|---------|----------
---------|---------|---------|---------|---------|---------|----------
---------|---------|---------|---------|---------|---------|----------
---------|-2-2-4--4|-1-1-4--4|---------|-2-2-4--4|---------|-1-1-4--4-
-2-2-4--4|-0-0-0--0|-2-2-2--2|-2-2-4--4|-0-0-0--0|-2-2-4--2|-2-2-2--2-
-0-0-0--0|---------|---------|-0-0-0--0|---------|-0-0-0--0|----------
     светит солнце не надо  сидеть у печи  так поднимайте же знамёна бичи
  E
E-----------
H-----------
G-----------
D-----------
A-2-2-4-4-2-
E-0-0-0-0-0-

Как весной на пашне грачи вюсду наши собратья бичи.
Светит солнце не надо сидеть у печи.
Так поднимайте же знамёна, бичи !

И не правы доки врачи, что мол разносчики заразы бичи.
Сдадим, если надо мы им, анализ мочи.
Захлебнутся в ней, больничные хрычи !

Наше счастье как пламя свечи, мы правы кричи не кричи.
Доносят на нас у-у пенсионные сычи.
Ещё сочтёмся у-у стукачи !

1st. Guitar
  E
E----------
H----------
G----------
D----------  - 8 раз.
A-2-2-4--4-
E-0-0-0--0-

2nd. Guitar (Solo)
   E
E----------------------------
H--2-2-2-2-2-2-2-2-2-2-------
G--4-4-4-4-4-4-4-4-4-4\2-0---
D--------------------------2- - 2 раза.
A----------------------------
E----------------------------

Если надо то сядь посучи, вот такие уж мы ловкачи.
Зато никто не стоит над душой не ворчит.
Завидуют нам, мужья - рогачи !

       E         A         E         E
     E---------|---------|---------|----------
     H---------|---------|---------|----------
     G---------|---------|---------|----------
     D---------|-2-2-4--4|---------|---------- - 4 раза.
     A-2-2-4--4|-0-0-0--0|-2-2-4--4|-2-2-4--4-
     E-0-0-0--0|---------|-0-0-0--0|-0-0-0--0-
Поднимайте   знамёна   бичи !

Coda.

1st. Guitar
E--------|--------|--------|--------|--------|--------|--------|---------
H--------|--------|--------|--------|--------|--------|--------|---------
G--------|--------|--------|--------|--------|--------|--------|---------
D--------|--------|--------|--------|--------|--------|--------|---------
A-2-2-4-4|-2-2-4-4|-2-2-4-4|-2-2-4-4|-2-2-4-4|-2-2-4-4|-2-2-4-4|-2-2-4-4-
E-0-0-0-0|-0-0-0-0|-0-0-0-0|-0-0-0-0|-0-0-0-0|-0-0-0-0|-0-0-0-0|-0-0-0-0-

2nd. Guitar
E--------|--------|----------|---5-5|--------|--------|----------|---5-5-
H-2-2-2-2|-2-2-2-2|-2-2------|---8-5|-2-2-2-2|-2-2-2-2|-2-2------|---8-5-
G-4-4-4-4|-4-4-4-4|-4-4\2-0--|---6-6|-4-4-4-4|-4-4-4-4|-4-4\2-0-2|---6-6-
D--------|--------|---------2|---5-5|--------|--------|----------|---5-5-
A--------|--------|----------|---7-7|--------|--------|----------|---7-7-
E--------|--------|----------|---7-7|--------|--------|----------|-------

2nd. Guitar
E------|------------|-------|------------|-------|------------|----------
H-b8r--|------------|-b8r---|------------|-b8r---|------------|-b8r--5---
G-----9|-----7-----7|------9|-----7-----7|------9|-----7-----7|----------
D------|-7h9---7h9--|-------|-7h9---7h9--|-------|-7h9---7h9--|----------
A------|------------|-------|------------|-------|------------|----------
E------|------------|-------|------------|-------|------------|----------

2nd. Guitar
E--------|--------|----------|-
H-2-2-2-2|-2-2-2-2|-2-2------|-
G-4-4-4-4|-4-4-4-4|-4-4\2-0--|-
D--------|--------|---------2|-
A--------|--------|----------|-
E--------|--------|----------|-

*Примечание:
   \ - Слайд вниз
   h - Наммер
   b - Бэнд
   r - Возврат в исходное положение после бэнда

В оригинале, судя по всему, рифф H7 иногда заменяется на H7 другого вида:
                   E---------                     E---------
                   H---------                     H---------
                   G---------                     G---------
                   D-1-1-4-4-                     D-4-4-6-6-
                   A-2-2-2-2-                     A-2-2-2-2-
                   E---------                     E---------
А в принципе и так звучит неплохо ;)

Текст:

      E        A       E
Поднимайте знамена, бичи.
     A      H7       E
Горячи уже солнца лучи.
       A           H7       E         A
Много нас, словно рать Куликовской сечи,
          E           H7      E
Так поднимайте же знамена, бичи.

Как весною на пашне грачи.
Всюду наши собратья бичи.
Светит солнце, не надо сидеть у печи.
Так поднимайте же знамена, бичи.

И не правы доки-врачи,
Что, мол, разносчики заразы бичи.
Сдадим, если надо, мы им анализ мочи,
Захлебнуться в ней больничные хрычи.

Наше счастье, как пламя свечи.
Мы правы, кричи не кричи,
Доносят на нас, у-у, пенсионные сычи,
Еще сочтемся, у-у, стукачи.

Если надо, то сядь, посучи,
Вот такие уж мы ловкачи.
Зато никто не стоит над душой и не ворчит,
Завидуют нам мужья-рогачи.

Поднимайте знамена, бичи.
Поднимайте знамена, бичи.
Поднимайте знамена, бичи.
Поднимайте знамена, бичи.

Оранжевое настроение

Как играть(подбирал - Ян Рогозин (aka Волосатый)):
Bass. (вступает с 3 такта)

  C      Am     Dm     G         C      Am     Dm     G
G------|------|------|---------|------|------|------|---------|- дальше
D------|------|-0---0|---------|------|------|-0---0|---------|- в этом же
A-3---3|-0---0|------|-----0-2-|-3---3|-0---0|------|-----0-2-|- духе.
E------|------|------|-3-3-----|------|------|------|-3-3-----|-

   C       Am          Dm    G
Бутылка кефира, пол-батона,
   C       Am          Dm    G
Бутылка кефира, пол-батона,
       C      Am   Dm   G
А я сегодня дома,
       C      Am   Dm   G
А я сегодня дома,
       C      Am   Dm G   C   Am   Dm   G
А я сегодня дома один у-у-у !

  Между куплетами вот такой переходик.
  C      Am     Dm       G        C
G------|------|--------|--------|---
D------|------|---0-2-3|-5-3-2-0|---
A-3---3|-0---0|-3------|--------|-3-
E------|------|--------|--------|---

С утра я почитаю газету,
И может быть сгоняю в кино,
И вобщем всё равно,
И вобщем всё равно,
И вобщем всё равно какое о-о-о !

А потом стоя на балконе,
Я буду смотреть на прохожих,
На девчёнок,
На весенних девчёнок,
На весенних девчёнок,
И немного на парней е-е-ей !

А потом проходя мимо зеркала,
Я скажу - "А что, не так уж я и страшен !"
Я даже немного,
Я даже немного,
Я даже немного, ничего о-о-о !

А я похож на новый "Икарус",
А у меня такая же улыбка,
И как у него,
И как у него,
Оранжевое настрое-е-е-ение !

  После этого на концертах В.Бегунов., на аккорде Dm обычно играет вот такую феньку:
    Dm  G
  E-1-1/3\1-1-  / - слайд вверх, \ - вниз соответственно.
  H-3-3/5\3-3-
  G-2-2/4\2-2-
  D-----------
  A-----------
  E-----------

  Тоесть на Dm он съезжает на два лада вверх, а затем возвращается в исходное.
  Первая гитара по-прежнему продолжает играть G, хотя у второй на третьем ладу
  получается Em. Но всё это очень гармонично звучит. ;)

А кефир я допью ровно в десять,
А батон я доем чуть пораньше,
И перед сном,
И скажу перед сном,
И скажу - "Ах мама, до чего хорошо!"

Бутылка кефира, пол-батона,
Бутылка кефира, пол-батона,
Бутылка кефира, пол-батона,
Бутылка кефира, пол-батона,

Оранжевое небо !
Оранжевое солнце !
Оранжевая мама !
Оранжевый верблюд !
Оранжевые песни,
Оранжево поют !

Я заполняю тобой

1|-7-------5-----3-----2-----| *2
2|----0------0-----0-----0---|
3|-------0-----0-----0-----0-|

1|-0-2-3-5->7-7--0-2-3-5->7-7|

G                               D Dsus2 Dsus4 D
    D     Dsus2      Dsus4           D
Ты будешь утренней птицей в белой фате.
Ты будешь мне сестрой во Христе.
    G
Ты будешь строкой на тетрадном листе.
Ты будешь стихом на могильной плите.

G                                  D Dsus2 Dsus4 D
Я заполняю тобою свой холст на стене.
Я заполняю тобою все то, что во мне.
Я заполняю тобою свободный эфир.
Я заполняю тобою оставшийся мир.

Ты будешь красным цветком, что плывет по реке.
Ты будешь бабочкой, что пока не в сачке.
Ты будешь водой в раскаленном песке.
Ты будешь звездой у меня на руке.

Я заполняю тобою свой холст на стене.
Я заполняю тобою все то, что во мне.
Я заполняю тобою свободный эфир.
Я заполняю тобою оставшийся мир.

    G                                D Dsus2 Dsus4 D
Ты будешь утренней птицей в белой фате.
Ты будешь мне сестрой во Христе.
Ты будешь строкой на тетрадном листе.
Ты будешь стихом на могильной плите.

И он сам

     D           Hm         G     A
Над ним и надо мной одно и то же небо.
   D            Hm             G   A
Сегодня он со мной, вчера со мною не был.
  D     Hm G          A            D         Hm G A
И он сам   сегодня стал такой как я точь-в-точь.
И он сам сегодня сам себе не смог помочь.
И он сам сегодня спутал день и ночь.

Сегодня у него со мной одна работа.
Сегодня у него со мной одна забота.
И он сам вчера так много попросил.
И он сам об этом к вечеру забыл.
И он сам обиду мне простил.

Сегодня у него со мною равен интеллект.
Сегодня у него тот же рубль на обед.
И он сам сегодня стал такой как я точь-в-точь.
И он сам сегодня сам себе не смог помочь.
И он сам сегодня спутал день и ночь.

Над ним и надо мной одно и то же небо.
Сегодня он со мной, вчера со мною не был.
И он сам сегодня стал такой как я точь-в-точь.
И он сам сегодня сам себе не смог помочь.
И он сам сегодня спутал день и ночь.

И он сам вчера так много попросил.
И он сам об этом к вечеру забыл.
И он сам обиду мне простил.

И он сам.
И он сам.
И он сам.
И он сам.
И он сам.
И он сам.

Вместе теплей

Подбирал - Ыгор:
       Em      Am    G         D      Em-этот аккорд из проигрыша
Он приходит к нам, когда уже вечер отпет.
Em-Am-G-D*-D-Em
       Em        Am        G       D
Он привык к темноте, не включает свет.
Em-Am-G-D*-D-Em
       G      Em  Am  D           Em-из проигрыша
Бесшумной походкой войдет в эту дверь.
Em-Am-G-D*-D-Em
     Em        Am  G   D      Em-из проигрыша
Он ищет здесь то, чего уже нет.

Он ищет здесь свой вчерашний день.
Он берет в руки медный крест и говорит мне: "Одень!"
Но мы будем нелепы с этим крестом.
И говорю ему мирно: "Оставь его на потом."

Он хочет увидеть в наших глазах ту весну.
Он хочет увидеть любовь и одну,
Одну с нами нить и корень один.
Но у нас другой ритм и мы поем другой гимн.

Наш гимн жестче, но быть может светлей.
За каждой строчкой мы видим конкретных людей.
Есть смысл за каждым движеньем руки.
Он знает все это, но приходит к нам вновь.

Наверно вместе просто немного теплей.
Наверно вместе просто немного теплей.
Наверно вместе просто немного теплей.
Наверно вместе просто немного теплей.
Наверно вместе просто немного теплей.
Наверно вместе просто немного теплей.
Наверно вместе просто немного теплей.

Блюз простого человека

Вчера я шел домой. Кругом была весна.
Его я встретил на углу и в нем не понял ни хрена.
Спросил я его: "Быть или не быть?", и он сказал: "Идите на!"

Мы все бежим в лабаз, продрав глаза едва.
В копилку он налил портвейн. Кому милей трава.
И мы теряем свой портфель и говорим слова.